ISO-10303-21;
HEADER;
FILE_DESCRIPTION (( 'STEP AP203' ),
    '1' );
FILE_NAME ('BK7-LNPBSC-12.7-532.STEP',
    '2021-01-05T02:00:56',
    ( '' ),
    ( '' ),
    'SwSTEP 2.0',
    'SolidWorks 2020',
    '' );
FILE_SCHEMA (( 'CONFIG_CONTROL_DESIGN' ));
ENDSEC;

DATA;
#1 = CARTESIAN_POINT ( 'NONE',  ( 6.349999999999998757, 6.349999999999998757, 6.349999999999999645 ) ) ;
#2 = EDGE_CURVE ( 'NONE', #308, #174, #16, .T. ) ;
#3 =( NAMED_UNIT ( * ) PLANE_ANGLE_UNIT ( ) SI_UNIT ( $, .RADIAN. ) );
#4 = VECTOR ( 'NONE', #155, 1000.000000000000000 ) ;
#5 = VERTEX_POINT ( 'NONE', #90 ) ;
#6 = CC_DESIGN_PERSON_AND_ORGANIZATION_ASSIGNMENT ( #121, #116, ( #164 ) ) ;
#7 = VECTOR ( 'NONE', #201, 1000.000000000000000 ) ;
#8 = LINE ( 'NONE', #183, #195 ) ;
#9 = ORIENTED_EDGE ( 'NONE', *, *, #248, .T. ) ;
#10 = APPROVAL_DATE_TIME ( #289, #106 ) ;
#11 = ORIENTED_EDGE ( 'NONE', *, *, #235, .T. ) ;
#12 = MECHANICAL_CONTEXT ( 'NONE', #45, 'mechanical' ) ;
#13 = ORIENTED_EDGE ( 'NONE', *, *, #108, .F. ) ;
#14 = DATE_AND_TIME ( #315, #294 ) ;
#15 = VECTOR ( 'NONE', #202, 1000.000000000000000 ) ;
#16 = LINE ( 'NONE', #286, #42 ) ;
#17 = VECTOR ( 'NONE', #284, 1000.000000000000000 ) ;
#18 = APPROVAL_STATUS ( 'not_yet_approved' ) ;
#19 = DIRECTION ( 'NONE',  ( 0.000000000000000000, 0.000000000000000000, 1.000000000000000000 ) ) ;
#20 = ADVANCED_FACE ( 'NONE', ( #190 ), #264, .T. ) ;
#21 = CALENDAR_DATE ( 2021, 5, 1 ) ;
#22 = LINE ( 'NONE', #122, #76 ) ;
#23 = ADVANCED_FACE ( 'NONE', ( #266 ), #298, .T. ) ;
#24 = CARTESIAN_POINT ( 'NONE',  ( -6.350000000000002309, 6.350000000000001421, 6.349999999999999645 ) ) ;
#25 = CARTESIAN_POINT ( 'NONE',  ( 6.349999999999996980, 6.349999999999996980, -6.349999999999999645 ) ) ;
#26 = CARTESIAN_POINT ( 'NONE',  ( -6.349999999999999645, -6.350000000000000533, 6.349999999999999645 ) ) ;
#27 = PLANE ( 'NONE',  #114 ) ;
#28 = ADVANCED_FACE ( 'NONE', ( #176 ), #48, .F. ) ;
#29 = CC_DESIGN_PERSON_AND_ORGANIZATION_ASSIGNMENT ( #217, #311, ( #164 ) ) ;
#30 = VECTOR ( 'NONE', #151, 1000.000000000000000 ) ;
#31 = EDGE_CURVE ( 'NONE', #174, #196, #228, .T. ) ;
#32 = EDGE_LOOP ( 'NONE', ( #193, #171, #312 ) ) ;
#33 = PLANE ( 'NONE',  #60 ) ;
#34 = EDGE_LOOP ( 'NONE', ( #37, #139, #62 ) ) ;
#35 = AXIS2_PLACEMENT_3D ( 'NONE', #181, #251, #124 ) ;
#36 = PERSON_AND_ORGANIZATION ( #71, #61 ) ;
#37 = ORIENTED_EDGE ( 'NONE', *, *, #204, .T. ) ;
#38 = APPROVAL_STATUS ( 'not_yet_approved' ) ;
#39 = VERTEX_POINT ( 'NONE', #144 ) ;
#40 = EDGE_LOOP ( 'NONE', ( #11, #98, #13, #313 ) ) ;
#41 = DIRECTION ( 'NONE',  ( 1.000000000000000000, 0.000000000000000000, 0.000000000000000000 ) ) ;
#42 = VECTOR ( 'NONE', #211, 1000.000000000000000 ) ;
#43 = CARTESIAN_POINT ( 'NONE',  ( 0.000000000000000000, 0.000000000000000000, 6.349999999999999645 ) ) ;
#44 = PERSON_AND_ORGANIZATION_ROLE ( 'classification_officer' ) ;
#45 = APPLICATION_CONTEXT ( 'configuration controlled 3d designs of mechanical parts and assemblies' ) ;
#46 = LINE ( 'NONE', #149, #161 ) ;
#47 = EDGE_CURVE ( 'NONE', #39, #170, #126, .T. ) ;
#48 = PLANE ( 'NONE',  #35 ) ;
#49 = SHAPE_DEFINITION_REPRESENTATION ( #317, #307 ) ;
#50 = LINE ( 'NONE', #257, #15 ) ;
#51 = LOCAL_TIME ( 10, 0, 56.00000000000000000, #274 ) ;
#52 = EDGE_CURVE ( 'NONE', #196, #308, #279, .T. ) ;
#53 = DIRECTION ( 'NONE',  ( -2.220446049250312588E-16, 1.000000000000000000, 0.000000000000000000 ) ) ;
#54 = DIRECTION ( 'NONE',  ( -2.220446049250312588E-16, 1.000000000000000000, 0.000000000000000000 ) ) ;
#55 = CARTESIAN_POINT ( 'NONE',  ( 6.349999999999996980, 6.349999999999996980, -6.349999999999999645 ) ) ;
#56 =( GEOMETRIC_REPRESENTATION_CONTEXT ( 3 ) GLOBAL_UNCERTAINTY_ASSIGNED_CONTEXT ( ( #276 ) ) GLOBAL_UNIT_ASSIGNED_CONTEXT ( ( #184, #3, #304 ) ) REPRESENTATION_CONTEXT ( 'NONE', 'WORKASPACE' ) );
#57 = CARTESIAN_POINT ( 'NONE',  ( 6.349999999999998757, 6.349999999999998757, 6.349999999999999645 ) ) ;
#58 = ORIENTED_EDGE ( 'NONE', *, *, #52, .F. ) ;
#59 = EDGE_LOOP ( 'NONE', ( #290, #239, #134 ) ) ;
#60 = AXIS2_PLACEMENT_3D ( 'NONE', #205, #206, #156 ) ;
#61 = ORGANIZATION ( 'UNSPECIFIED', 'UNSPECIFIED', '' ) ;
#62 = ORIENTED_EDGE ( 'NONE', *, *, #207, .T. ) ;
#63 = APPLICATION_CONTEXT ( 'configuration controlled 3d designs of mechanical parts and assemblies' ) ;
#64 = CARTESIAN_POINT ( 'NONE',  ( 0.000000000000000000, 0.000000000000000000, 6.349999999999999645 ) ) ;
#65 = CARTESIAN_POINT ( 'NONE',  ( 6.349999999999999645, -6.350000000000000533, 6.349999999999999645 ) ) ;
#66 = ORIENTED_EDGE ( 'NONE', *, *, #187, .T. ) ;
#67 = DIRECTION ( 'NONE',  ( 0.000000000000000000, 0.000000000000000000, 1.000000000000000000 ) ) ;
#68 = ORIENTED_EDGE ( 'NONE', *, *, #229, .T. ) ;
#69 = PERSON_AND_ORGANIZATION_ROLE ( 'design_owner' ) ;
#70 = EDGE_LOOP ( 'NONE', ( #68, #158, #94, #305 ) ) ;
#71 = PERSON ( 'UNSPECIFIED', 'UNSPECIFIED', 'UNSPECIFIED', ('UNSPECIFIED'), ('UNSPECIFIED'), ('UNSPECIFIED') ) ;
#72 = PERSON_AND_ORGANIZATION ( #71, #61 ) ;
#73 = PRODUCT_DEFINITION ( 'UNKNOWN', '', #164, #270 ) ;
#74 = DIRECTION ( 'NONE',  ( -0.7071067811865474617, -0.7071067811865474617, 0.000000000000000000 ) ) ;
#75 = PERSON_AND_ORGANIZATION_ROLE ( 'creator' ) ;
#76 = VECTOR ( 'NONE', #273, 999.9999999999998863 ) ;
#77 = CARTESIAN_POINT ( 'NONE',  ( 6.349999999999998757, 6.349999999999998757, 6.349999999999999645 ) ) ;
#78 = PERSON_AND_ORGANIZATION ( #71, #61 ) ;
#79 = DIRECTION ( 'NONE',  ( 1.000000000000000000, -2.220446049250312588E-16, 0.000000000000000000 ) ) ;
#80 = FACE_OUTER_BOUND ( 'NONE', #288, .T. ) ;
#81 = FACE_OUTER_BOUND ( 'NONE', #40, .T. ) ;
#82 = DIRECTION ( 'NONE',  ( 1.000000000000000000, 0.000000000000000000, 0.000000000000000000 ) ) ;
#83 = DIRECTION ( 'NONE',  ( -6.829619984160658046E-17, 1.000000000000000000, -0.000000000000000000 ) ) ;
#84 = LINE ( 'NONE', #234, #314 ) ;
#85 = ORIENTED_EDGE ( 'NONE', *, *, #89, .T. ) ;
#86 = AXIS2_PLACEMENT_3D ( 'NONE', #236, #283, #93 ) ;
#87 = LINE ( 'NONE', #26, #4 ) ;
#88 = ORIENTED_EDGE ( 'NONE', *, *, #296, .F. ) ;
#89 = EDGE_CURVE ( 'NONE', #247, #115, #22, .T. ) ;
#90 = CARTESIAN_POINT ( 'NONE',  ( -6.350000000000002309, 6.350000000000001421, 6.349999999999999645 ) ) ;
#91 = APPROVAL_PERSON_ORGANIZATION ( #78, #281, #142 ) ;
#92 = ORIENTED_EDGE ( 'NONE', *, *, #188, .T. ) ;
#93 = DIRECTION ( 'NONE',  ( 0.7071067811865475727, 0.7071067811865475727, 0.000000000000000000 ) ) ;
#94 = ORIENTED_EDGE ( 'NONE', *, *, #207, .F. ) ;
#95 = DATE_TIME_ROLE ( 'classification_date' ) ;
#96 = ORIENTED_EDGE ( 'NONE', *, *, #2, .F. ) ;
#97 = APPLICATION_PROTOCOL_DEFINITION ( 'international standard', 'config_control_design', 1994, #45 ) ;
#98 = ORIENTED_EDGE ( 'NONE', *, *, #225, .F. ) ;
#99 = VECTOR ( 'NONE', #83, 1000.000000000000000 ) ;
#100 = DATE_TIME_ROLE ( 'creation_date' ) ;
#101 = CARTESIAN_POINT ( 'NONE',  ( 6.349999999999998757, 6.349999999999998757, -6.349999999999999645 ) ) ;
#102 = DIRECTION ( 'NONE',  ( 0.000000000000000000, 0.000000000000000000, 1.000000000000000000 ) ) ;
#103 = CC_DESIGN_SECURITY_CLASSIFICATION ( #150, ( #164 ) ) ;
#104 = DIRECTION ( 'NONE',  ( 0.000000000000000000, 0.000000000000000000, -1.000000000000000000 ) ) ;
#105 = DIRECTION ( 'NONE',  ( 0.000000000000000000, 1.000000000000000000, 0.000000000000000000 ) ) ;
#106 = APPROVAL ( #18, 'UNSPECIFIED' ) ;
#107 = CC_DESIGN_APPROVAL ( #106, ( #164 ) ) ;
#108 = EDGE_CURVE ( 'NONE', #218, #133, #291, .T. ) ;
#109 = LINE ( 'NONE', #1, #278 ) ;
#110 = CC_DESIGN_APPROVAL ( #281, ( #73 ) ) ;
#111 = ORIENTED_EDGE ( 'NONE', *, *, #173, .F. ) ;
#112 = DIRECTION ( 'NONE',  ( 6.829619984160658046E-17, -1.000000000000000000, 0.000000000000000000 ) ) ;
#113 = ADVANCED_FACE ( 'NONE', ( #81 ), #297, .F. ) ;
#114 = AXIS2_PLACEMENT_3D ( 'NONE', #57, #262, #112 ) ;
#115 = VERTEX_POINT ( 'NONE', #316 ) ;
#116 = PERSON_AND_ORGANIZATION_ROLE ( 'creator' ) ;
#117 = ORIENTED_EDGE ( 'NONE', *, *, #31, .F. ) ;
#118 = AXIS2_PLACEMENT_3D ( 'NONE', #321, #105, #277 ) ;
#119 = DIRECTION ( 'NONE',  ( -0.7071067811865475727, -0.7071067811865475727, 0.000000000000000000 ) ) ;
#120 = CARTESIAN_POINT ( 'NONE',  ( 6.349999999999996980, 6.349999999999996980, -6.349999999999999645 ) ) ;
#121 = PERSON_AND_ORGANIZATION ( #71, #61 ) ;
#122 = CARTESIAN_POINT ( 'NONE',  ( 6.349999999999996980, 6.349999999999996980, 6.349999999999999645 ) ) ;
#123 = ADVANCED_FACE ( 'NONE', ( #80 ), #320, .F. ) ;
#124 = DIRECTION ( 'NONE',  ( 0.7071067811865474617, 0.7071067811865474617, 0.000000000000000000 ) ) ;
#125 = CALENDAR_DATE ( 2021, 5, 1 ) ;
#126 = LINE ( 'NONE', #101, #319 ) ;
#127 = CARTESIAN_POINT ( 'NONE',  ( 6.349999999999998757, 6.349999999999998757, 6.349999999999999645 ) ) ;
#128 = CC_DESIGN_PERSON_AND_ORGANIZATION_ASSIGNMENT ( #194, #69, ( #163 ) ) ;
#129 = PLANE ( 'NONE',  #263 ) ;
#130 = DIRECTION ( 'NONE',  ( -0.7071067811865474617, -0.7071067811865474617, 0.000000000000000000 ) ) ;
#131 = CARTESIAN_POINT ( 'NONE',  ( -6.349999999999999645, -6.350000000000000533, 6.349999999999999645 ) ) ;
#132 = LOCAL_TIME ( 10, 0, 56.00000000000000000, #244 ) ;
#133 = VERTEX_POINT ( 'NONE', #148 ) ;
#134 = ORIENTED_EDGE ( 'NONE', *, *, #31, .T. ) ;
#135 = LINE ( 'NONE', #192, #186 ) ;
#136 = DIRECTION ( 'NONE',  ( -0.000000000000000000, 0.000000000000000000, 1.000000000000000000 ) ) ;
#137 = COORDINATED_UNIVERSAL_TIME_OFFSET ( 8, 0, .AHEAD. ) ;
#138 = EDGE_CURVE ( 'NONE', #247, #196, #258, .T. ) ;
#139 = ORIENTED_EDGE ( 'NONE', *, *, #108, .T. ) ;
#140 = APPROVAL_ROLE ( '' ) ;
#141 = ORIENTED_EDGE ( 'NONE', *, *, #138, .T. ) ;
#142 = APPROVAL_ROLE ( '' ) ;
#143 = VERTEX_POINT ( 'NONE', #77 ) ;
#144 = CARTESIAN_POINT ( 'NONE',  ( 6.349999999999998757, 6.349999999999998757, -6.349999999999999645 ) ) ;
#145 = LOCAL_TIME ( 10, 0, 56.00000000000000000, #146 ) ;
#146 = COORDINATED_UNIVERSAL_TIME_OFFSET ( 8, 0, .AHEAD. ) ;
#147 = CARTESIAN_POINT ( 'NONE',  ( -6.350000000000002309, 6.350000000000001421, -6.349999999999999645 ) ) ;
#148 = CARTESIAN_POINT ( 'NONE',  ( 6.349999999999999645, -6.350000000000000533, 6.349999999999999645 ) ) ;
#149 = CARTESIAN_POINT ( 'NONE',  ( -6.349999999999998757, -6.349999999999997868, 6.349999999999999645 ) ) ;
#150 = SECURITY_CLASSIFICATION ( '', '', #197 ) ;
#151 = DIRECTION ( 'NONE',  ( 1.000000000000000000, 0.000000000000000000, 0.000000000000000000 ) ) ;
#152 = LINE ( 'NONE', #127, #249 ) ;
#153 = CC_DESIGN_PERSON_AND_ORGANIZATION_ASSIGNMENT ( #175, #44, ( #150 ) ) ;
#154 = AXIS2_PLACEMENT_3D ( 'NONE', #275, #253, #226 ) ;
#155 = DIRECTION ( 'NONE',  ( -0.000000000000000000, -0.000000000000000000, -1.000000000000000000 ) ) ;
#156 = DIRECTION ( 'NONE',  ( 1.000000000000000000, 0.000000000000000000, 0.000000000000000000 ) ) ;
#157 = DIRECTION ( 'NONE',  ( -1.000000000000000000, 2.903408047666378392E-16, 0.000000000000000000 ) ) ;
#158 = ORIENTED_EDGE ( 'NONE', *, *, #248, .F. ) ;
#159 = MANIFOLD_SOLID_BREP ( '¾µÏ', #189 ) ;
#160 = APPROVAL ( #38, 'UNSPECIFIED' ) ;
#161 = VECTOR ( 'NONE', #104, 1000.000000000000000 ) ;
#162 = MANIFOLD_SOLID_BREP ( 'Í¹Ì¨-À', #260 ) ;
#163 = PRODUCT ( 'BK7-LNPBSC-12.7-532', 'BK7-LNPBSC-12.7-532', '', ( #12 ) ) ;
#164 = PRODUCT_DEFINITION_FORMATION_WITH_SPECIFIED_SOURCE ( 'ANY', '', #163, .NOT_KNOWN. ) ;
#165 = CC_DESIGN_DATE_AND_TIME_ASSIGNMENT ( #14, #100, ( #73 ) ) ;
#166 = EDGE_LOOP ( 'NONE', ( #272, #306, #88 ) ) ;
#167 = CC_DESIGN_DATE_AND_TIME_ASSIGNMENT ( #224, #95, ( #150 ) ) ;
#168 = DIRECTION ( 'NONE',  ( 1.000000000000000000, 0.000000000000000000, 0.000000000000000000 ) ) ;
#169 = ADVANCED_FACE ( 'NONE', ( #178 ), #180, .F. ) ;
#170 = VERTEX_POINT ( 'NONE', #179 ) ;
#171 = ORIENTED_EDGE ( 'NONE', *, *, #229, .F. ) ;
#172 = APPLICATION_PROTOCOL_DEFINITION ( 'international standard', 'config_control_design', 1994, #63 ) ;
#173 = EDGE_CURVE ( 'NONE', #115, #308, #46, .T. ) ;
#174 = VERTEX_POINT ( 'NONE', #147 ) ;
#175 = PERSON_AND_ORGANIZATION ( #71, #61 ) ;
#176 = FACE_OUTER_BOUND ( 'NONE', #210, .T. ) ;
#177 = APPROVAL_ROLE ( '' ) ;
#178 = FACE_OUTER_BOUND ( 'NONE', #59, .T. ) ;
#179 = CARTESIAN_POINT ( 'NONE',  ( -6.349999999999999645, -6.350000000000000533, -6.349999999999999645 ) ) ;
#180 = PLANE ( 'NONE',  #154 ) ;
#181 = CARTESIAN_POINT ( 'NONE',  ( 6.349999999999998757, 6.349999999999998757, 6.349999999999999645 ) ) ;
#182 = CC_DESIGN_APPROVAL ( #160, ( #150 ) ) ;
#183 = CARTESIAN_POINT ( 'NONE',  ( 6.349999999999998757, 6.349999999999998757, 6.349999999999999645 ) ) ;
#184 =( LENGTH_UNIT ( ) NAMED_UNIT ( * ) SI_UNIT ( .MILLI., .METRE. ) );
#185 = CARTESIAN_POINT ( 'NONE',  ( 6.349999999999996980, 6.349999999999996980, 6.349999999999999645 ) ) ;
#186 = VECTOR ( 'NONE', #82, 1000.000000000000000 ) ;
#187 = EDGE_CURVE ( 'NONE', #5, #174, #318, .T. ) ;
#188 = EDGE_CURVE ( 'NONE', #5, #247, #50, .T. ) ;
#189 = CLOSED_SHELL ( 'NONE', ( #255, #123, #219, #23, #169 ) ) ;
#190 = FACE_OUTER_BOUND ( 'NONE', #34, .T. ) ;
#191 = ADVANCED_FACE ( 'NONE', ( #240 ), #33, .F. ) ;
#192 = CARTESIAN_POINT ( 'NONE',  ( -6.349999999999999645, -6.350000000000000533, -6.349999999999999645 ) ) ;
#193 = ORIENTED_EDGE ( 'NONE', *, *, #47, .F. ) ;
#194 = PERSON_AND_ORGANIZATION ( #71, #61 ) ;
#195 = VECTOR ( 'NONE', #282, 1000.000000000000000 ) ;
#196 = VERTEX_POINT ( 'NONE', #55 ) ;
#197 = SECURITY_CLASSIFICATION_LEVEL ( 'unclassified' ) ;
#198 = CARTESIAN_POINT ( 'NONE',  ( -6.349999999999998757, -6.349999999999997868, 6.349999999999999645 ) ) ;
#199 = CARTESIAN_POINT ( 'NONE',  ( 6.349999999999996980, 6.349999999999996980, 6.349999999999999645 ) ) ;
#200 = CARTESIAN_POINT ( 'NONE',  ( 0.000000000000000000, 0.000000000000000000, 0.000000000000000000 ) ) ;
#201 = DIRECTION ( 'NONE',  ( 0.000000000000000000, 0.000000000000000000, -1.000000000000000000 ) ) ;
#202 = DIRECTION ( 'NONE',  ( 1.000000000000000000, -2.903408047666378392E-16, 0.000000000000000000 ) ) ;
#203 = APPROVAL_DATE_TIME ( #280, #160 ) ;
#204 = EDGE_CURVE ( 'NONE', #143, #218, #152, .T. ) ;
#205 = CARTESIAN_POINT ( 'NONE',  ( 0.000000000000000000, 0.000000000000000000, -6.349999999999999645 ) ) ;
#206 = DIRECTION ( 'NONE',  ( -0.000000000000000000, 0.000000000000000000, 1.000000000000000000 ) ) ;
#207 = EDGE_CURVE ( 'NONE', #133, #143, #109, .T. ) ;
#208 = CARTESIAN_POINT ( 'NONE',  ( 6.349999999999998757, 6.349999999999998757, -6.349999999999999645 ) ) ;
#209 = AXIS2_PLACEMENT_3D ( 'NONE', #64, #136, #168 ) ;
#210 = EDGE_LOOP ( 'NONE', ( #213, #268, #241, #9 ) ) ;
#211 = DIRECTION ( 'NONE',  ( -2.220446049250312588E-16, 1.000000000000000000, 0.000000000000000000 ) ) ;
#212 = VECTOR ( 'NONE', #295, 1000.000000000000000 ) ;
#213 = ORIENTED_EDGE ( 'NONE', *, *, #47, .T. ) ;
#214 = APPROVAL_PERSON_ORGANIZATION ( #72, #106, #177 ) ;
#215 = CARTESIAN_POINT ( 'NONE',  ( 6.349999999999999645, -6.350000000000000533, -6.349999999999999645 ) ) ;
#216 = VERTEX_POINT ( 'NONE', #215 ) ;
#217 = PERSON_AND_ORGANIZATION ( #71, #61 ) ;
#218 = VERTEX_POINT ( 'NONE', #131 ) ;
#219 = ADVANCED_FACE ( 'NONE', ( #230 ), #129, .F. ) ;
#220 = ORIENTED_EDGE ( 'NONE', *, *, #138, .F. ) ;
#221 = APPROVAL_DATE_TIME ( #252, #281 ) ;
#222 = CC_DESIGN_PERSON_AND_ORGANIZATION_ASSIGNMENT ( #36, #75, ( #73 ) ) ;
#223 = CARTESIAN_POINT ( 'NONE',  ( -6.349999999999999645, -6.350000000000000533, 6.349999999999999645 ) ) ;
#224 = DATE_AND_TIME ( #21, #145 ) ;
#225 = EDGE_CURVE ( 'NONE', #133, #216, #302, .T. ) ;
#226 = DIRECTION ( 'NONE',  ( -2.220446049250312588E-16, 1.000000000000000000, 0.000000000000000000 ) ) ;
#227 = VECTOR ( 'NONE', #292, 1000.000000000000000 ) ;
#228 = LINE ( 'NONE', #120, #212 ) ;
#229 = EDGE_CURVE ( 'NONE', #216, #39, #300, .T. ) ;
#230 = FACE_OUTER_BOUND ( 'NONE', #243, .T. ) ;
#231 = AXIS2_PLACEMENT_3D ( 'NONE', #43, #19, #53 ) ;
#232 = CARTESIAN_POINT ( 'NONE',  ( 6.349999999999996980, 6.349999999999996980, 6.349999999999999645 ) ) ;
#233 = EDGE_CURVE ( 'NONE', #218, #170, #87, .T. ) ;
#234 = CARTESIAN_POINT ( 'NONE',  ( -6.349999999999998757, -6.349999999999997868, 6.349999999999999645 ) ) ;
#235 = EDGE_CURVE ( 'NONE', #170, #216, #135, .T. ) ;
#236 = CARTESIAN_POINT ( 'NONE',  ( 6.349999999999996980, 6.349999999999996980, 6.349999999999999645 ) ) ;
#237 = APPROVAL_PERSON_ORGANIZATION ( #269, #160, #140 ) ;
#238 = ORIENTED_EDGE ( 'NONE', *, *, #296, .T. ) ;
#239 = ORIENTED_EDGE ( 'NONE', *, *, #2, .T. ) ;
#240 = FACE_OUTER_BOUND ( 'NONE', #32, .T. ) ;
#241 = ORIENTED_EDGE ( 'NONE', *, *, #204, .F. ) ;
#242 = CALENDAR_DATE ( 2021, 5, 1 ) ;
#243 = EDGE_LOOP ( 'NONE', ( #117, #285, #92, #141 ) ) ;
#244 = COORDINATED_UNIVERSAL_TIME_OFFSET ( 8, 0, .AHEAD. ) ;
#245 = EDGE_LOOP ( 'NONE', ( #58, #220, #85, #310 ) ) ;
#246 = COORDINATED_UNIVERSAL_TIME_OFFSET ( 8, 0, .AHEAD. ) ;
#247 = VERTEX_POINT ( 'NONE', #185 ) ;
#248 = EDGE_CURVE ( 'NONE', #143, #39, #8, .T. ) ;
#249 = VECTOR ( 'NONE', #130, 1000.000000000000114 ) ;
#250 = LOCAL_TIME ( 10, 0, 56.00000000000000000, #246 ) ;
#251 = DIRECTION ( 'NONE',  ( 0.7071067811865475727, -0.7071067811865475727, 0.000000000000000000 ) ) ;
#252 = DATE_AND_TIME ( #267, #250 ) ;
#253 = DIRECTION ( 'NONE',  ( 0.000000000000000000, 0.000000000000000000, 1.000000000000000000 ) ) ;
#254 = VECTOR ( 'NONE', #119, 999.9999999999998863 ) ;
#255 = ADVANCED_FACE ( 'NONE', ( #303 ), #261, .F. ) ;
#256 = AXIS2_PLACEMENT_3D ( 'NONE', #200, #67, #41 ) ;
#257 = CARTESIAN_POINT ( 'NONE',  ( 6.349999999999996980, 6.349999999999996980, 6.349999999999999645 ) ) ;
#258 = LINE ( 'NONE', #199, #227 ) ;
#259 = FACE_OUTER_BOUND ( 'NONE', #70, .T. ) ;
#260 = CLOSED_SHELL ( 'NONE', ( #28, #113, #299, #20, #191 ) ) ;
#261 = PLANE ( 'NONE',  #86 ) ;
#262 = DIRECTION ( 'NONE',  ( -1.000000000000000000, -6.829619984160658046E-17, 0.000000000000000000 ) ) ;
#263 = AXIS2_PLACEMENT_3D ( 'NONE', #232, #287, #157 ) ;
#264 = PLANE ( 'NONE',  #209 ) ;
#265 = DIRECTION ( 'NONE',  ( -6.829619984160658046E-17, 1.000000000000000000, -0.000000000000000000 ) ) ;
#266 = FACE_OUTER_BOUND ( 'NONE', #166, .T. ) ;
#267 = CALENDAR_DATE ( 2021, 5, 1 ) ;
#268 = ORIENTED_EDGE ( 'NONE', *, *, #233, .F. ) ;
#269 = PERSON_AND_ORGANIZATION ( #71, #61 ) ;
#270 = DESIGN_CONTEXT ( 'detailed design', #63, 'design' ) ;
#271 = APPROVAL_STATUS ( 'not_yet_approved' ) ;
#272 = ORIENTED_EDGE ( 'NONE', *, *, #89, .F. ) ;
#273 = DIRECTION ( 'NONE',  ( -0.7071067811865475727, -0.7071067811865475727, 0.000000000000000000 ) ) ;
#274 = COORDINATED_UNIVERSAL_TIME_OFFSET ( 8, 0, .AHEAD. ) ;
#275 = CARTESIAN_POINT ( 'NONE',  ( 0.000000000000000000, 0.000000000000000000, -6.349999999999999645 ) ) ;
#276 = UNCERTAINTY_MEASURE_WITH_UNIT (LENGTH_MEASURE( 1.000000000000000082E-05 ), #184, 'distance_accuracy_value', 'NONE');
#277 = DIRECTION ( 'NONE',  ( 0.000000000000000000, -0.000000000000000000, 1.000000000000000000 ) ) ;
#278 = VECTOR ( 'NONE', #265, 1000.000000000000000 ) ;
#279 = LINE ( 'NONE', #25, #254 ) ;
#280 = DATE_AND_TIME ( #125, #132 ) ;
#281 = APPROVAL ( #271, 'UNSPECIFIED' ) ;
#282 = DIRECTION ( 'NONE',  ( -0.000000000000000000, -0.000000000000000000, -1.000000000000000000 ) ) ;
#283 = DIRECTION ( 'NONE',  ( -0.7071067811865475727, 0.7071067811865475727, 0.000000000000000000 ) ) ;
#284 = DIRECTION ( 'NONE',  ( -0.000000000000000000, -0.000000000000000000, -1.000000000000000000 ) ) ;
#285 = ORIENTED_EDGE ( 'NONE', *, *, #187, .F. ) ;
#286 = CARTESIAN_POINT ( 'NONE',  ( -6.349999999999998757, -6.349999999999997868, -6.349999999999999645 ) ) ;
#287 = DIRECTION ( 'NONE',  ( -2.903408047666378392E-16, -1.000000000000000000, 0.000000000000000000 ) ) ;
#288 = EDGE_LOOP ( 'NONE', ( #96, #111, #238, #66 ) ) ;
#289 = DATE_AND_TIME ( #242, #51 ) ;
#290 = ORIENTED_EDGE ( 'NONE', *, *, #52, .T. ) ;
#291 = LINE ( 'NONE', #223, #30 ) ;
#292 = DIRECTION ( 'NONE',  ( 0.000000000000000000, 0.000000000000000000, -1.000000000000000000 ) ) ;
#293 = AXIS2_PLACEMENT_3D ( 'NONE', #198, #79, #102 ) ;
#294 = LOCAL_TIME ( 10, 0, 56.00000000000000000, #137 ) ;
#295 = DIRECTION ( 'NONE',  ( 1.000000000000000000, -2.903408047666378392E-16, 0.000000000000000000 ) ) ;
#296 = EDGE_CURVE ( 'NONE', #115, #5, #84, .T. ) ;
#297 = PLANE ( 'NONE',  #118 ) ;
#298 = PLANE ( 'NONE',  #231 ) ;
#299 = ADVANCED_FACE ( 'NONE', ( #259 ), #27, .F. ) ;
#300 = LINE ( 'NONE', #208, #99 ) ;
#301 = PRODUCT_RELATED_PRODUCT_CATEGORY ( 'detail', '', ( #163 ) ) ;
#302 = LINE ( 'NONE', #65, #17 ) ;
#303 = FACE_OUTER_BOUND ( 'NONE', #245, .T. ) ;
#304 =( NAMED_UNIT ( * ) SI_UNIT ( $, .STERADIAN. ) SOLID_ANGLE_UNIT ( ) );
#305 = ORIENTED_EDGE ( 'NONE', *, *, #225, .T. ) ;
#306 = ORIENTED_EDGE ( 'NONE', *, *, #188, .F. ) ;
#307 = ADVANCED_BREP_SHAPE_REPRESENTATION ( 'BK7-LNPBSC-12.7-532', ( #162, #159, #256 ), #56 ) ;
#308 = VERTEX_POINT ( 'NONE', #309 ) ;
#309 = CARTESIAN_POINT ( 'NONE',  ( -6.349999999999998757, -6.349999999999997868, -6.349999999999999645 ) ) ;
#310 = ORIENTED_EDGE ( 'NONE', *, *, #173, .T. ) ;
#311 = PERSON_AND_ORGANIZATION_ROLE ( 'design_supplier' ) ;
#312 = ORIENTED_EDGE ( 'NONE', *, *, #235, .F. ) ;
#313 = ORIENTED_EDGE ( 'NONE', *, *, #233, .T. ) ;
#314 = VECTOR ( 'NONE', #54, 1000.000000000000000 ) ;
#315 = CALENDAR_DATE ( 2021, 5, 1 ) ;
#316 = CARTESIAN_POINT ( 'NONE',  ( -6.349999999999998757, -6.349999999999997868, 6.349999999999999645 ) ) ;
#317 = PRODUCT_DEFINITION_SHAPE ( 'NONE', 'NONE',  #73 ) ;
#318 = LINE ( 'NONE', #24, #7 ) ;
#319 = VECTOR ( 'NONE', #74, 1000.000000000000114 ) ;
#320 = PLANE ( 'NONE',  #293 ) ;
#321 = CARTESIAN_POINT ( 'NONE',  ( -6.349999999999999645, -6.350000000000000533, 6.349999999999999645 ) ) ;
ENDSEC;
END-ISO-10303-21;
